ISO-10303-21;
HEADER;
FILE_DESCRIPTION (( 'STEP AP203' ),
    '1' );
FILE_NAME ('FULLVAC BS1KF4038.STEP',
    '2018-07-12T10:30:53',
    ( '' ),
    ( '' ),
    'SwSTEP 2.0',
    'SolidWorks 2017',
    '' );
FILE_SCHEMA (( 'CONFIG_CONTROL_DESIGN' ));
ENDSEC;

DATA;
#1 = EDGE_CURVE ( 'NONE', #278, #278, #259, .T. ) ;
#2 = CARTESIAN_POINT ( 'NONE',  ( -54.61346540353369500, 2.061611643136658700, -27.30673270176684800 ) ) ;
#3 = DIRECTION ( 'NONE',  ( 0.0000000000000000000, -1.000000000000000000, 0.0000000000000000000 ) ) ;
#4 = COORDINATED_UNIVERSAL_TIME_OFFSET ( 1, 0, .AHEAD. ) ;
#5 = DIRECTION ( 'NONE',  ( -0.0000000000000000000, -1.000000000000000000, -0.0000000000000000000 ) ) ;
#6 = EDGE_LOOP ( 'NONE', ( #233 ) ) ;
#7 = AXIS2_PLACEMENT_3D ( 'NONE', #48, #73, #100 ) ;
#8 = CARTESIAN_POINT ( 'NONE',  ( 0.0000000000000000000, 2.560000000000000100, -20.60000000000000100 ) ) ;
#9 = FACE_OUTER_BOUND ( 'NONE', #136, .T. ) ;
#10 = CARTESIAN_POINT ( 'NONE',  ( 0.0000000000000000000, 1.300000000000010000, -19.17500000000000100 ) ) ;
#11 = CONICAL_SURFACE ( 'NONE', #7, 27.07940952255534100, 1.308996939000000000 ) ;
#12 = CYLINDRICAL_SURFACE ( 'NONE', #282, 27.44999999999999900 ) ;
#13 = ORIENTED_EDGE ( 'NONE', *, *, #1, .T. ) ;
#14 = AXIS2_PLACEMENT_3D ( 'NONE', #115, #234, #253 ) ;
#15 = CARTESIAN_POINT ( 'NONE',  ( 0.0000000000000000000, 2.000700580844957200, -27.07940952255129800 ) ) ;
#16 = SHAPE_DEFINITION_REPRESENTATION ( #239, #230 ) ;
#17 = CARTESIAN_POINT ( 'NONE',  ( 0.0000000000000000000, 2.061611643136659600, -27.30673270176685500 ) ) ;
#18 = DIRECTION ( 'NONE',  ( -0.0000000000000000000, 1.000000000000000000, -0.0000000000000000000 ) ) ;
#19 = PRODUCT_DEFINITION_FORMATION_WITH_SPECIFIED_SOURCE ( 'ANY', '', #87, .NOT_KNOWN. ) ;
#20 = DIRECTION ( 'NONE',  ( 0.0000000000000000000, 0.0000000000000000000, -1.000000000000000000 ) ) ;
#21 = ORIENTED_EDGE ( 'NONE', *, *, #261, .T. ) ;
#22 = DIRECTION ( 'NONE',  ( 0.0000000000000000000, 0.0000000000000000000, -1.000000000000000000 ) ) ;
#23 = CARTESIAN_POINT ( 'NONE',  ( 0.0000000000000000000, 3.577867169202164600E-015, 0.0000000000000000000 ) ) ;
#24 = COORDINATED_UNIVERSAL_TIME_OFFSET ( 1, 0, .AHEAD. ) ;
#25 = CARTESIAN_POINT ( 'NONE',  ( -54.89999999999999900, 2.248321221292525400, 27.44999999999999900 ) ) ;
#26 = DIRECTION ( 'NONE',  ( -0.0000000000000000000, 1.000000000000000000, -0.0000000000000000000 ) ) ;
#27 = APPROVAL_ROLE ( '' ) ;
#28 = DIRECTION ( 'NONE',  ( 0.0000000000000000000, 0.0000000000000000000, 1.000000000000000000 ) ) ;
#29 = EDGE_LOOP ( 'NONE', ( #13 ) ) ;
#30 = PERSON_AND_ORGANIZATION_ROLE ( 'classification_officer' ) ;
#31 = MECHANICAL_CONTEXT ( 'NONE', #107, 'mechanical' ) ;
#32 = DATE_TIME_ROLE ( 'classification_date' ) ;
#33 = FACE_OUTER_BOUND ( 'NONE', #121, .T. ) ;
#34 = ADVANCED_FACE ( 'NONE', ( #197, #9 ), #70, .T. ) ;
#35 = AXIS2_PLACEMENT_3D ( 'NONE', #23, #26, #193 ) ;
#36 = FACE_OUTER_BOUND ( 'NONE', #219, .T. ) ;
#37 = EDGE_LOOP ( 'NONE', ( #205 ) ) ;
#38 = ADVANCED_FACE ( 'NONE', ( #102, #302 ), #213, .F. ) ;
#39 = FACE_BOUND ( 'NONE', #117, .T. ) ;
#40 = ORIENTED_EDGE ( 'NONE', *, *, #65, .T. ) ;
#41 = DIRECTION ( 'NONE',  ( 0.0000000000000000000, 0.0000000000000000000, -1.000000000000000000 ) ) ;
#42 = DIRECTION ( 'NONE',  ( 0.0000000000000000000, -1.000000000000000000, 0.0000000000000000000 ) ) ;
#43 = DIRECTION ( 'NONE',  ( 0.0000000000000000000, -1.000000000000000000, 0.0000000000000000000 ) ) ;
#44 = VERTEX_POINT ( 'NONE', #292 ) ;
#45 = FACE_OUTER_BOUND ( 'NONE', #188, .T. ) ;
#46 = CARTESIAN_POINT ( 'NONE',  ( 0.0000000000000000000, 1.300000000000010000, 0.0000000000000000000 ) ) ;
#47 = CC_DESIGN_APPROVAL ( #276, ( #267 ) ) ;
#48 = CARTESIAN_POINT ( 'NONE',  ( 0.0000000000000000000, 2.000700580829860400, 0.0000000000000000000 ) ) ;
#49 = FACE_BOUND ( 'NONE', #92, .T. ) ;
#50 = CARTESIAN_POINT ( 'NONE',  ( 0.0000000000000000000, 2.061611643136659600, -27.30673270176685500 ) ) ;
#51 = ORIENTED_EDGE ( 'NONE', *, *, #133, .T. ) ;
#52 = SECURITY_CLASSIFICATION_LEVEL ( 'unclassified' ) ;
#53 = COORDINATED_UNIVERSAL_TIME_OFFSET ( 1, 0, .AHEAD. ) ;
#54 = ORIENTED_EDGE ( 'NONE', *, *, #263, .T. ) ;
#55 = PERSON_AND_ORGANIZATION_ROLE ( 'design_supplier' ) ;
#56 = DIRECTION ( 'NONE',  ( 0.0000000000000000000, 0.0000000000000000000, -1.000000000000000000 ) ) ;
#57 =( NAMED_UNIT ( * ) SI_UNIT ( $, .STERADIAN. ) SOLID_ANGLE_UNIT ( ) );
#58 = VERTEX_POINT ( 'NONE', #8 ) ;
#59 = CALENDAR_DATE ( 2018, 12, 7 ) ;
#60 = ADVANCED_FACE ( 'NONE', ( #157, #160 ), #264, .F. ) ;
#61 = CC_DESIGN_SECURITY_CLASSIFICATION ( #267, ( #19 ) ) ;
#62 = PERSON_AND_ORGANIZATION ( #76, #308 ) ;
#63 = DESIGN_CONTEXT ( 'detailed design', #86, 'design' ) ;
#64 = CARTESIAN_POINT ( 'NONE',  ( 0.0000000000000000000, 2.560000000000000100, 0.0000000000000000000 ) ) ;
#65 = EDGE_CURVE ( 'NONE', #58, #58, #200, .T. ) ;
#66 = CIRCLE ( 'NONE', #252, 27.44999999999999900 ) ;
#67 = DIRECTION ( 'NONE',  ( 0.0000000000000000000, 1.000000000000000000, 0.0000000000000000000 ) ) ;
#68 = CARTESIAN_POINT ( 'NONE',  ( 54.61346540353369500, 2.061611643136658700, 27.30673270176684800 ) ) ;
#69 = AXIS2_PLACEMENT_3D ( 'NONE', #64, #18, #20 ) ;
#70 = PLANE ( 'NONE',  #14 ) ;
#71 = CARTESIAN_POINT ( 'NONE',  ( 54.89999999999999100, 2.483663493989479900, -27.44999999999999600 ) ) ;
#72 = ORIENTED_EDGE ( 'NONE', *, *, #221, .T. ) ;
#73 = DIRECTION ( 'NONE',  ( 0.0000000000000000000, 1.000000000000000000, 0.0000000000000000000 ) ) ;
#74 = CARTESIAN_POINT ( 'NONE',  ( 0.0000000000000000000, 2.248321221292525400, -27.45000000000000600 ) ) ;
#75 = CARTESIAN_POINT ( 'NONE',  ( 54.89999999999999900, 2.248321221292525400, 27.44999999999999900 ) ) ;
#76 = PERSON ( 'UNSPECIFIED', 'UNSPECIFIED', 'UNSPECIFIED', ('UNSPECIFIED'), ('UNSPECIFIED'), ('UNSPECIFIED') ) ;
#77 = CALENDAR_DATE ( 2018, 12, 7 ) ;
#78 = CARTESIAN_POINT ( 'NONE',  ( -54.89999999999999900, 2.248321221292525400, -27.44999999999999900 ) ) ;
#79 = EDGE_LOOP ( 'NONE', ( #84 ) ) ;
#80 = CARTESIAN_POINT ( 'NONE',  ( 0.0000000000000000000, 5.099999999999999600, -20.60000000000000100 ) ) ;
#81 = CARTESIAN_POINT ( 'NONE',  ( 0.0000000000000000000, 1.667025892326812200E-011, 19.61269330410093300 ) ) ;
#82 = EDGE_CURVE ( 'NONE', #192, #192, #225, .T. ) ;
#83 = PLANE ( 'NONE',  #91 ) ;
#84 = ORIENTED_EDGE ( 'NONE', *, *, #207, .T. ) ;
#85 = PERSON_AND_ORGANIZATION_ROLE ( 'creator' ) ;
#86 = APPLICATION_CONTEXT ( 'configuration controlled 3d designs of mechanical parts and assemblies' ) ;
#87 = PRODUCT ( 'FULLVAC BS1KF4038', 'FULLVAC BS1KF4038', '', ( #31 ) ) ;
#88 =( BOUNDED_SURFACE ( )  B_SPLINE_SURFACE ( 3, 3, ( 
 ( #15, #183, #311, #206, #97, #280, #208 ),
 ( #17, #281, #68, #257, #189, #2, #50 ),
 ( #74, #123, #75, #260, #25, #78, #169 ),
 ( #103, #71, #265, #211, #212, #289, #124 ) ),
 .UNSPECIFIED., .F., .T., .F. ) 
 B_SPLINE_SURFACE_WITH_KNOTS ( ( 4, 4 ),
 ( 4, 3, 4 ),
 ( 0.0000000000000000000, 1.000000000000000000 ),
 ( 0.0000000000000000000, 0.5000000000000000000, 1.000000000000000000 ),
 .UNSPECIFIED. ) 
 GEOMETRIC_REPRESENTATION_ITEM ( )  RATIONAL_B_SPLINE_SURFACE ( (
 ( 1.000000000000000000, 0.3333333333333333100, 0.3333333333333333100, 1.000000000000000000, 0.3333333333333333100, 0.3333333333333333100, 1.000000000000000000),
 ( 0.8622355601941740200, 0.2874118533980579700, 0.2874118533980579700, 0.8622355601941740200, 0.2874118533980579700, 0.2874118533980579700, 0.8622355601941740200),
 ( 0.8622355601941740200, 0.2874118533980579700, 0.2874118533980579700, 0.8622355601941740200, 0.2874118533980579700, 0.2874118533980579700, 0.8622355601941740200),
 ( 1.000000000000000000, 0.3333333333333333100, 0.3333333333333333100, 1.000000000000000000, 0.3333333333333333100, 0.3333333333333333100, 1.000000000000000000) ) ) 
 REPRESENTATION_ITEM ( '' )  SURFACE ( )  );
#89 = LOCAL_TIME ( 12, 30, 53.00000000000000000, #24 ) ;
#90 = EDGE_LOOP ( 'NONE', ( #153 ) ) ;
#91 = AXIS2_PLACEMENT_3D ( 'NONE', #222, #266, #129 ) ;
#92 = EDGE_LOOP ( 'NONE', ( #279 ) ) ;
#93 = ADVANCED_FACE ( 'NONE', ( #127, #33 ), #94, .T. ) ;
#94 = PLANE ( 'NONE',  #161 ) ;
#95 = CALENDAR_DATE ( 2018, 12, 7 ) ;
#96 = FACE_OUTER_BOUND ( 'NONE', #90, .T. ) ;
#97 = CARTESIAN_POINT ( 'NONE',  ( -54.15881904510260400, 2.000700580844956700, 27.07940952255130200 ) ) ;
#98 = EDGE_LOOP ( 'NONE', ( #269 ) ) ;
#99 = PRODUCT_RELATED_PRODUCT_CATEGORY ( 'detail', '', ( #87 ) ) ;
#100 = DIRECTION ( 'NONE',  ( 0.0000000000000000000, 0.0000000000000000000, 1.000000000000000000 ) ) ;
#101 = FACE_OUTER_BOUND ( 'NONE', #294, .T. ) ;
#102 = FACE_OUTER_BOUND ( 'NONE', #137, .T. ) ;
#103 = CARTESIAN_POINT ( 'NONE',  ( 0.0000000000000000000, 2.483663493989479900, -27.44999999999999900 ) ) ;
#104 = CARTESIAN_POINT ( 'NONE',  ( 0.0000000000000000000, 2.483663493989479900, -27.44999999999999900 ) ) ;
#105 = LOCAL_TIME ( 12, 30, 53.00000000000000000, #53 ) ;
#106 = APPROVAL ( #109, 'UNSPECIFIED' ) ;
#107 = APPLICATION_CONTEXT ( 'configuration controlled 3d designs of mechanical parts and assemblies' ) ;
#108 = APPROVAL_ROLE ( '' ) ;
#109 = APPROVAL_STATUS ( 'not_yet_approved' ) ;
#110 = ADVANCED_FACE ( 'NONE', ( #273, #150 ), #12, .T. ) ;
#111 =( GEOMETRIC_REPRESENTATION_CONTEXT ( 3 ) GLOBAL_UNCERTAINTY_ASSIGNED_CONTEXT ( ( #142 ) ) GLOBAL_UNIT_ASSIGNED_CONTEXT ( ( #215, #244, #57 ) ) REPRESENTATION_CONTEXT ( 'NONE', 'WORKASPACE' ) );
#112 = COORDINATED_UNIVERSAL_TIME_OFFSET ( 1, 0, .AHEAD. ) ;
#113 = EDGE_LOOP ( 'NONE', ( #304 ) ) ;
#114 = ORIENTED_EDGE ( 'NONE', *, *, #82, .F. ) ;
#115 = CARTESIAN_POINT ( 'NONE',  ( 19.17500000000000100, 3.527700660132000500E-015, 0.0000000000000000000 ) ) ;
#116 = APPROVAL_PERSON_ORGANIZATION ( #238, #276, #108 ) ;
#117 = EDGE_LOOP ( 'NONE', ( #51 ) ) ;
#118 = CC_DESIGN_PERSON_AND_ORGANIZATION_ASSIGNMENT ( #204, #174, ( #87 ) ) ;
#119 = PLANE ( 'NONE',  #170 ) ;
#120 = DATE_AND_TIME ( #218, #132 ) ;
#121 = EDGE_LOOP ( 'NONE', ( #209 ) ) ;
#122 = DIRECTION ( 'NONE',  ( 0.0000000000000000000, -1.000000000000000000, 0.0000000000000000000 ) ) ;
#123 = CARTESIAN_POINT ( 'NONE',  ( 54.89999999999999900, 2.248321221292525400, -27.44999999999999900 ) ) ;
#124 = CARTESIAN_POINT ( 'NONE',  ( 0.0000000000000000000, 2.483663493989479900, -27.44999999999999900 ) ) ;
#125 = AXIS2_PLACEMENT_3D ( 'NONE', #270, #196, #56 ) ;
#126 = VERTEX_POINT ( 'NONE', #104 ) ;
#127 = FACE_BOUND ( 'NONE', #79, .T. ) ;
#128 = APPROVAL_STATUS ( 'not_yet_approved' ) ;
#129 = DIRECTION ( 'NONE',  ( 0.0000000000000000000, -0.0000000000000000000, 1.000000000000000000 ) ) ;
#130 = PERSON_AND_ORGANIZATION ( #76, #308 ) ;
#131 = ADVANCED_FACE ( 'NONE', ( #96, #45 ), #88, .T. ) ;
#132 = LOCAL_TIME ( 12, 30, 53.00000000000000000, #4 ) ;
#133 = EDGE_CURVE ( 'NONE', #148, #148, #255, .T. ) ;
#134 = CIRCLE ( 'NONE', #216, 20.60000000000000100 ) ;
#135 = CC_DESIGN_PERSON_AND_ORGANIZATION_ASSIGNMENT ( #181, #85, ( #19 ) ) ;
#136 = EDGE_LOOP ( 'NONE', ( #114 ) ) ;
#137 = EDGE_LOOP ( 'NONE', ( #274 ) ) ;
#138 = FACE_OUTER_BOUND ( 'NONE', #113, .T. ) ;
#139 = PRODUCT_DEFINITION ( 'UNKNOWN', '', #19, #63 ) ;
#140 = DIRECTION ( 'NONE',  ( 0.0000000000000000000, -0.0000000000000000000, 1.000000000000000000 ) ) ;
#141 = DIRECTION ( 'NONE',  ( 0.0000000000000000000, 0.0000000000000000000, -1.000000000000000000 ) ) ;
#142 = UNCERTAINTY_MEASURE_WITH_UNIT (LENGTH_MEASURE( 1.000000000000000100E-005 ), #215, 'distance_accuracy_value', 'NONE');
#143 = CLOSED_SHELL ( 'NONE', ( #300, #131, #34, #110, #38, #93, #250, #249, #60, #301 ) ) ;
#144 = DIRECTION ( 'NONE',  ( 0.0000000000000000000, -1.000000000000000000, 0.0000000000000000000 ) ) ;
#145 = DIRECTION ( 'NONE',  ( 0.0000000000000000000, 0.0000000000000000000, -1.000000000000000000 ) ) ;
#146 = CARTESIAN_POINT ( 'NONE',  ( 0.0000000000000000000, 2.000700580829860800, 0.0000000000000000000 ) ) ;
#147 = CC_DESIGN_PERSON_AND_ORGANIZATION_ASSIGNMENT ( #305, #55, ( #19 ) ) ;
#148 = VERTEX_POINT ( 'NONE', #177 ) ;
#149 = CARTESIAN_POINT ( 'NONE',  ( 0.0000000000000000000, 5.099999999999999600, 0.0000000000000000000 ) ) ;
#150 = FACE_OUTER_BOUND ( 'NONE', #248, .T. ) ;
#151 = CARTESIAN_POINT ( 'NONE',  ( 0.0000000000000000000, 2.560000000000000100, 0.0000000000000000000 ) ) ;
#152 = CC_DESIGN_DATE_AND_TIME_ASSIGNMENT ( #120, #217, ( #139 ) ) ;
#153 = ORIENTED_EDGE ( 'NONE', *, *, #261, .F. ) ;
#154 = CARTESIAN_POINT ( 'NONE',  ( 0.0000000000000000000, 3.577867169202164600E-015, -19.17500000000000100 ) ) ;
#155 = CARTESIAN_POINT ( 'NONE',  ( 0.0000000000000000000, 0.0000000000000000000, 0.0000000000000000000 ) ) ;
#156 = PERSON_AND_ORGANIZATION ( #76, #308 ) ;
#157 = FACE_OUTER_BOUND ( 'NONE', #295, .T. ) ;
#158 = VERTEX_POINT ( 'NONE', #220 ) ;
#159 = ORIENTED_EDGE ( 'NONE', *, *, #299, .T. ) ;
#160 = FACE_OUTER_BOUND ( 'NONE', #37, .T. ) ;
#161 = AXIS2_PLACEMENT_3D ( 'NONE', #228, #67, #140 ) ;
#162 = DIRECTION ( 'NONE',  ( 0.0000000000000000000, 1.000000000000000000, 0.0000000000000000000 ) ) ;
#163 = EDGE_CURVE ( 'NONE', #272, #272, #172, .T. ) ;
#164 = DIRECTION ( 'NONE',  ( 0.0000000000000000000, -1.000000000000000000, 0.0000000000000000000 ) ) ;
#165 = PERSON_AND_ORGANIZATION ( #76, #308 ) ;
#166 = FACE_OUTER_BOUND ( 'NONE', #202, .T. ) ;
#167 = CARTESIAN_POINT ( 'NONE',  ( 0.0000000000000000000, 1.930000000000000200, 0.0000000000000000000 ) ) ;
#168 = DIRECTION ( 'NONE',  ( 0.0000000000000000000, 0.0000000000000000000, -1.000000000000000000 ) ) ;
#169 = CARTESIAN_POINT ( 'NONE',  ( 0.0000000000000000000, 2.248321221292525400, -27.45000000000000600 ) ) ;
#170 = AXIS2_PLACEMENT_3D ( 'NONE', #287, #144, #312 ) ;
#171 = VERTEX_POINT ( 'NONE', #80 ) ;
#172 = CIRCLE ( 'NONE', #35, 19.17500000000000100 ) ;
#173 = ORIENTED_EDGE ( 'NONE', *, *, #263, .F. ) ;
#174 = PERSON_AND_ORGANIZATION_ROLE ( 'design_owner' ) ;
#175 = APPLICATION_PROTOCOL_DEFINITION ( 'international standard', 'config_control_design', 1994, #107 ) ;
#176 = APPROVAL_PERSON_ORGANIZATION ( #156, #226, #27 ) ;
#177 = CARTESIAN_POINT ( 'NONE',  ( 0.0000000000000000000, 2.560000000000000100, -17.78999999999999900 ) ) ;
#178 = APPROVAL_DATE_TIME ( #184, #106 ) ;
#179 = CYLINDRICAL_SURFACE ( 'NONE', #303, 20.60000000000000100 ) ;
#180 = AXIS2_PLACEMENT_3D ( 'NONE', #146, #5, #191 ) ;
#181 = PERSON_AND_ORGANIZATION ( #76, #308 ) ;
#182 = ORIENTED_EDGE ( 'NONE', *, *, #133, .F. ) ;
#183 = CARTESIAN_POINT ( 'NONE',  ( 54.15881904510260400, 2.000700580844956700, -27.07940952255130200 ) ) ;
#184 = DATE_AND_TIME ( #77, #254 ) ;
#185 = FACE_BOUND ( 'NONE', #29, .T. ) ;
#186 = AXIS2_PLACEMENT_3D ( 'NONE', #262, #122, #198 ) ;
#187 = DIRECTION ( 'NONE',  ( 0.0000000000000000000, 0.0000000000000000000, 1.000000000000000000 ) ) ;
#188 = EDGE_LOOP ( 'NONE', ( #54 ) ) ;
#189 = CARTESIAN_POINT ( 'NONE',  ( -54.61346540353369500, 2.061611643136658700, 27.30673270176684800 ) ) ;
#190 = AXIS2_PLACEMENT_3D ( 'NONE', #167, #42, #286 ) ;
#191 = DIRECTION ( 'NONE',  ( 1.000000000000000000, 0.0000000000000000000, 0.0000000000000000000 ) ) ;
#192 = VERTEX_POINT ( 'NONE', #81 ) ;
#193 = DIRECTION ( 'NONE',  ( 0.0000000000000000000, 0.0000000000000000000, -1.000000000000000000 ) ) ;
#194 = APPROVAL_ROLE ( '' ) ;
#195 = CC_DESIGN_PERSON_AND_ORGANIZATION_ASSIGNMENT ( #165, #30, ( #267 ) ) ;
#196 = DIRECTION ( 'NONE',  ( 0.0000000000000000000, -1.000000000000000000, 0.0000000000000000000 ) ) ;
#197 = FACE_BOUND ( 'NONE', #98, .T. ) ;
#198 = DIRECTION ( 'NONE',  ( 0.0000000000000000000, 0.0000000000000000000, -1.000000000000000000 ) ) ;
#199 = LOCAL_TIME ( 12, 30, 53.00000000000000000, #284 ) ;
#200 = CIRCLE ( 'NONE', #69, 20.60000000000000100 ) ;
#201 = MANIFOLD_SOLID_BREP ( '\X2\5BE69AD4\X0\2', #143 ) ;
#202 = EDGE_LOOP ( 'NONE', ( #159 ) ) ;
#203 = AXIS2_PLACEMENT_3D ( 'NONE', #155, #28, #223 ) ;
#204 = PERSON_AND_ORGANIZATION ( #76, #308 ) ;
#205 = ORIENTED_EDGE ( 'NONE', *, *, #1, .F. ) ;
#206 = CARTESIAN_POINT ( 'NONE',  ( 0.0000000000000000000, 2.000700580844957200, 27.07940952255129800 ) ) ;
#207 = EDGE_CURVE ( 'NONE', #171, #171, #134, .T. ) ;
#208 = CARTESIAN_POINT ( 'NONE',  ( 0.0000000000000000000, 2.000700580844957200, -27.07940952255129800 ) ) ;
#209 = ORIENTED_EDGE ( 'NONE', *, *, #221, .F. ) ;
#210 = DIRECTION ( 'NONE',  ( 0.0000000000000000000, -1.000000000000000000, 0.0000000000000000000 ) ) ;
#211 = CARTESIAN_POINT ( 'NONE',  ( 0.0000000000000000000, 2.483663493989479900, 27.44999999999999900 ) ) ;
#212 = CARTESIAN_POINT ( 'NONE',  ( -54.89999999999999100, 2.483663493989479900, 27.44999999999999600 ) ) ;
#213 = CYLINDRICAL_SURFACE ( 'NONE', #224, 19.17500000000000100 ) ;
#214 = DIRECTION ( 'NONE',  ( 0.0000000000000000000, 0.0000000000000000000, -1.000000000000000000 ) ) ;
#215 =( LENGTH_UNIT ( ) NAMED_UNIT ( * ) SI_UNIT ( .MILLI., .METRE. ) );
#216 = AXIS2_PLACEMENT_3D ( 'NONE', #149, #3, #168 ) ;
#217 = DATE_TIME_ROLE ( 'creation_date' ) ;
#218 = CALENDAR_DATE ( 2018, 12, 7 ) ;
#219 = EDGE_LOOP ( 'NONE', ( #40 ) ) ;
#220 = CARTESIAN_POINT ( 'NONE',  ( 27.07940952255534100, 2.000700580829860800, 0.0000000000000000000 ) ) ;
#221 = EDGE_CURVE ( 'NONE', #44, #44, #66, .T. ) ;
#222 = CARTESIAN_POINT ( 'NONE',  ( 20.60000000000000100, 2.560000000000000100, 0.0000000000000000000 ) ) ;
#223 = DIRECTION ( 'NONE',  ( 1.000000000000000000, 0.0000000000000000000, 0.0000000000000000000 ) ) ;
#224 = AXIS2_PLACEMENT_3D ( 'NONE', #310, #164, #141 ) ;
#225 = CIRCLE ( 'NONE', #291, 19.61269330410093300 ) ;
#226 = APPROVAL ( #128, 'UNSPECIFIED' ) ;
#227 = DATE_AND_TIME ( #95, #199 ) ;
#228 = CARTESIAN_POINT ( 'NONE',  ( 27.44999999999999900, 5.099999999999999600, 0.0000000000000000000 ) ) ;
#229 = CARTESIAN_POINT ( 'NONE',  ( 0.0000000000000000000, 3.600000000000000500, 0.0000000000000000000 ) ) ;
#230 = ADVANCED_BREP_SHAPE_REPRESENTATION ( 'FULLVAC BS1KF4038', ( #201, #203 ), #111 ) ;
#231 = CC_DESIGN_APPROVAL ( #106, ( #19 ) ) ;
#232 = APPROVAL_DATE_TIME ( #227, #226 ) ;
#233 = ORIENTED_EDGE ( 'NONE', *, *, #65, .F. ) ;
#234 = DIRECTION ( 'NONE',  ( 0.0000000000000000000, -1.000000000000000000, 0.0000000000000000000 ) ) ;
#235 = CARTESIAN_POINT ( 'NONE',  ( 0.0000000000000000000, 5.099999999999999600, 0.0000000000000000000 ) ) ;
#236 = DIRECTION ( 'NONE',  ( 0.0000000000000000000, -1.000000000000000000, 0.0000000000000000000 ) ) ;
#237 = APPROVAL_DATE_TIME ( #271, #276 ) ;
#238 = PERSON_AND_ORGANIZATION ( #76, #308 ) ;
#239 = PRODUCT_DEFINITION_SHAPE ( 'NONE', 'NONE',  #139 ) ;
#240 = DIRECTION ( 'NONE',  ( 0.0000000000000000000, -1.000000000000000000, 0.0000000000000000000 ) ) ;
#241 = DATE_AND_TIME ( #59, #89 ) ;
#242 = AXIS2_PLACEMENT_3D ( 'NONE', #46, #283, #41 ) ;
#243 = CIRCLE ( 'NONE', #180, 27.07940952255534100 ) ;
#244 =( NAMED_UNIT ( * ) PLANE_ANGLE_UNIT ( ) SI_UNIT ( $, .RADIAN. ) );
#245 = AXIS2_PLACEMENT_3D ( 'NONE', #151, #236, #22 ) ;
#246 = APPROVAL_STATUS ( 'not_yet_approved' ) ;
#247 = APPROVAL_PERSON_ORGANIZATION ( #130, #106, #194 ) ;
#248 = EDGE_LOOP ( 'NONE', ( #72 ) ) ;
#249 = ADVANCED_FACE ( 'NONE', ( #138, #309 ), #179, .F. ) ;
#250 = ADVANCED_FACE ( 'NONE', ( #185, #166 ), #119, .T. ) ;
#251 = EDGE_LOOP ( 'NONE', ( #173 ) ) ;
#252 = AXIS2_PLACEMENT_3D ( 'NONE', #235, #240, #145 ) ;
#253 = DIRECTION ( 'NONE',  ( 0.0000000000000000000, -0.0000000000000000000, -1.000000000000000000 ) ) ;
#254 = LOCAL_TIME ( 12, 30, 53.00000000000000000, #112 ) ;
#255 = CIRCLE ( 'NONE', #245, 17.78999999999999900 ) ;
#256 = DIRECTION ( 'NONE',  ( 0.0000000000000000000, 0.0000000000000000000, -1.000000000000000000 ) ) ;
#257 = CARTESIAN_POINT ( 'NONE',  ( 0.0000000000000000000, 2.061611643136659600, 27.30673270176685500 ) ) ;
#258 = CC_DESIGN_DATE_AND_TIME_ASSIGNMENT ( #241, #32, ( #267 ) ) ;
#259 = CIRCLE ( 'NONE', #242, 17.78999999999999900 ) ;
#260 = CARTESIAN_POINT ( 'NONE',  ( 0.0000000000000000000, 2.248321221292525400, 27.45000000000000600 ) ) ;
#261 = EDGE_CURVE ( 'NONE', #158, #158, #243, .T. ) ;
#262 = CARTESIAN_POINT ( 'NONE',  ( 0.0000000000000000000, 2.483663493989479900, 0.0000000000000000000 ) ) ;
#263 = EDGE_CURVE ( 'NONE', #126, #126, #288, .T. ) ;
#264 = CYLINDRICAL_SURFACE ( 'NONE', #190, 17.78999999999999900 ) ;
#265 = CARTESIAN_POINT ( 'NONE',  ( 54.89999999999999100, 2.483663493989479900, 27.44999999999999600 ) ) ;
#266 = DIRECTION ( 'NONE',  ( 0.0000000000000000000, 1.000000000000000000, 0.0000000000000000000 ) ) ;
#267 = SECURITY_CLASSIFICATION ( '', '', #52 ) ;
#268 = APPLICATION_PROTOCOL_DEFINITION ( 'international standard', 'config_control_design', 1994, #86 ) ;
#269 = ORIENTED_EDGE ( 'NONE', *, *, #163, .T. ) ;
#270 = CARTESIAN_POINT ( 'NONE',  ( 0.0000000000000000000, 1.300000000000010000, 0.0000000000000000000 ) ) ;
#271 = DATE_AND_TIME ( #277, #105 ) ;
#272 = VERTEX_POINT ( 'NONE', #154 ) ;
#273 = FACE_OUTER_BOUND ( 'NONE', #251, .T. ) ;
#274 = ORIENTED_EDGE ( 'NONE', *, *, #299, .F. ) ;
#275 = ORIENTED_EDGE ( 'NONE', *, *, #163, .F. ) ;
#276 = APPROVAL ( #246, 'UNSPECIFIED' ) ;
#277 = CALENDAR_DATE ( 2018, 12, 7 ) ;
#278 = VERTEX_POINT ( 'NONE', #298 ) ;
#279 = ORIENTED_EDGE ( 'NONE', *, *, #82, .T. ) ;
#280 = CARTESIAN_POINT ( 'NONE',  ( -54.15881904510260400, 2.000700580844956700, -27.07940952255130200 ) ) ;
#281 = CARTESIAN_POINT ( 'NONE',  ( 54.61346540353369500, 2.061611643136658700, -27.30673270176684800 ) ) ;
#282 = AXIS2_PLACEMENT_3D ( 'NONE', #229, #43, #256 ) ;
#283 = DIRECTION ( 'NONE',  ( -0.0000000000000000000, 1.000000000000000000, -0.0000000000000000000 ) ) ;
#284 = COORDINATED_UNIVERSAL_TIME_OFFSET ( 1, 0, .AHEAD. ) ;
#285 = EDGE_LOOP ( 'NONE', ( #275 ) ) ;
#286 = DIRECTION ( 'NONE',  ( 0.0000000000000000000, 0.0000000000000000000, -1.000000000000000000 ) ) ;
#287 = CARTESIAN_POINT ( 'NONE',  ( 17.78999999999999900, 1.300000000000010000, 0.0000000000000000000 ) ) ;
#288 = CIRCLE ( 'NONE', #186, 27.44999999999999900 ) ;
#289 = CARTESIAN_POINT ( 'NONE',  ( -54.89999999999999100, 2.483663493989479900, -27.44999999999999600 ) ) ;
#290 = CARTESIAN_POINT ( 'NONE',  ( 0.0000000000000000000, 3.830000000000000100, 0.0000000000000000000 ) ) ;
#291 = AXIS2_PLACEMENT_3D ( 'NONE', #307, #162, #187 ) ;
#292 = CARTESIAN_POINT ( 'NONE',  ( 0.0000000000000000000, 5.099999999999999600, -27.44999999999999900 ) ) ;
#293 = CIRCLE ( 'NONE', #125, 19.17500000000000100 ) ;
#294 = EDGE_LOOP ( 'NONE', ( #21 ) ) ;
#295 = EDGE_LOOP ( 'NONE', ( #182 ) ) ;
#296 = PERSON_AND_ORGANIZATION_ROLE ( 'creator' ) ;
#297 = CC_DESIGN_PERSON_AND_ORGANIZATION_ASSIGNMENT ( #62, #296, ( #139 ) ) ;
#298 = CARTESIAN_POINT ( 'NONE',  ( 0.0000000000000000000, 1.300000000000010000, -17.78999999999999900 ) ) ;
#299 = EDGE_CURVE ( 'NONE', #313, #313, #293, .T. ) ;
#300 = ADVANCED_FACE ( 'NONE', ( #101, #49 ), #11, .T. ) ;
#301 = ADVANCED_FACE ( 'NONE', ( #39, #36 ), #83, .T. ) ;
#302 = FACE_OUTER_BOUND ( 'NONE', #285, .T. ) ;
#303 = AXIS2_PLACEMENT_3D ( 'NONE', #290, #210, #214 ) ;
#304 = ORIENTED_EDGE ( 'NONE', *, *, #207, .F. ) ;
#305 = PERSON_AND_ORGANIZATION ( #76, #308 ) ;
#306 = CC_DESIGN_APPROVAL ( #226, ( #139 ) ) ;
#307 = CARTESIAN_POINT ( 'NONE',  ( 0.0000000000000000000, 1.667025892326812200E-011, 0.0000000000000000000 ) ) ;
#308 = ORGANIZATION ( 'UNSPECIFIED', 'UNSPECIFIED', '' ) ;
#309 = FACE_OUTER_BOUND ( 'NONE', #6, .T. ) ;
#310 = CARTESIAN_POINT ( 'NONE',  ( 0.0000000000000000000, 0.6500000000000060200, 0.0000000000000000000 ) ) ;
#311 = CARTESIAN_POINT ( 'NONE',  ( 54.15881904510260400, 2.000700580844956700, 27.07940952255130200 ) ) ;
#312 = DIRECTION ( 'NONE',  ( 0.0000000000000000000, -0.0000000000000000000, -1.000000000000000000 ) ) ;
#313 = VERTEX_POINT ( 'NONE', #10 ) ;
ENDSEC;
END-ISO-10303-21;
